  0
SECTION
  2
HEADER
  9
$ACADVER
  1
AC1015
  9
$ACADMAINTVER
 70
     6
  9
$DWGCODEPAGE
  3
ANSI_1254
  9
$INSBASE
 10
0.0
 20
0.0
 30
0.0
  9
$EXTMIN
 10
0.0
 20
0.0
 30
0.0
  9
$EXTMAX
 10
279.4
 20
215.9
 30
0.0
  9
$LIMMIN
 10
0.0
 20
0.0
  9
$LIMMAX
 10
279.4
 20
215.9
  9
$ORTHOMODE
 70
     0
  9
$REGENMODE
 70
     1
  9
$FILLMODE
 70
     1
  9
$QTEXTMODE
 70
     0
  9
$MIRRTEXT
 70
     1
  9
$LTSCALE
 40
1.0
  9
$ATTMODE
 70
     1
  9
$TEXTSIZE
 40
3.5
  9
$TRACEWID
 40
1.0
  9
$TEXTSTYLE
  7
Standard
  9
$CLAYER
  8
0
  9
$CELTYPE
  6
ByLayer
  9
$CECOLOR
 62
   256
  9
$CELTSCALE
 40
1.0
  9
$DISPSILH
 70
     0
  9
$DIMSCALE
 40
1.0
  9
$DIMASZ
 40
3.5
  9
$DIMEXO
 40
1.0
  9
$DIMDLI
 40
3.75
  9
$DIMRND
 40
0.0
  9
$DIMDLE
 40
0.0
  9
$DIMEXE
 40
1.0
  9
$DIMTP
 40
0.0
  9
$DIMTM
 40
0.0
  9
$DIMTXT
 40
3.5
  9
$DIMCEN
 40
2.5
  9
$DIMTSZ
 40
0.0
  9
$DIMTOL
 70
     0
  9
$DIMLIM
 70
     0
  9
$DIMTIH
 70
     1
  9
$DIMTOH
 70
     1
  9
$DIMSE1
 70
     0
  9
$DIMSE2
 70
     0
  9
$DIMTAD
 70
     1
  9
$DIMZIN
 70
     0
  9
$DIMBLK
  1

  9
$DIMASO
 70
     1
  9
$DIMSHO
 70
     1
  9
$DIMPOST
  1

  9
$DIMAPOST
  1

  9
$DIMALT
 70
     0
  9
$DIMALTD
 70
     3
  9
$DIMALTF
 40
0.0393700787
  9
$DIMLFAC
 40
1.0
  9
$DIMTOFL
 70
     1
  9
$DIMTVP
 40
0.0
  9
$DIMTIX
 70
     0
  9
$DIMSOXD
 70
     0
  9
$DIMSAH
 70
     0
  9
$DIMBLK1
  1

  9
$DIMBLK2
  1

  9
$DIMSTYLE
  2
ISO-25
  9
$DIMCLRD
 70
     0
  9
$DIMCLRE
 70
     0
  9
$DIMCLRT
 70
     0
  9
$DIMTFAC
 40
1.0
  9
$DIMGAP
 40
1.524
  9
$DIMJUST
 70
     0
  9
$DIMSD1
 70
     0
  9
$DIMSD2
 70
     0
  9
$DIMTOLJ
 70
     0
  9
$DIMTZIN
 70
     0
  9
$DIMALTZ
 70
     0
  9
$DIMALTTZ
 70
     0
  9
$DIMUPT
 70
     0
  9
$DIMDEC
 70
     2
  9
$DIMTDEC
 70
     2
  9
$DIMALTU
 70
     2
  9
$DIMALTTD
 70
     3
  9
$DIMTXSTY
  7
Standard
  9
$DIMAUNIT
 70
     0
  9
$DIMADEC
 70
     2
  9
$DIMALTRND
 40
0.0
  9
$DIMAZIN
 70
     0
  9
$DIMDSEP
 70
    44
  9
$DIMATFIT
 70
     3
  9
$DIMFRAC
 70
     0
  9
$DIMLDRBLK
  1

  9
$DIMLUNIT
 70
     2
  9
$DIMLWD
 70
    -2
  9
$DIMLWE
 70
    -2
  9
$DIMTMOVE
 70
     0
  9
$LUNITS
 70
     2
  9
$LUPREC
 70
     2
  9
$SKETCHINC
 40
1.0
  9
$FILLETRAD
 40
10.0
  9
$AUNITS
 70
     0
  9
$AUPREC
 70
     2
  9
$MENU
  1
.
  9
$ELEVATION
 40
0.0
  9
$PELEVATION
 40
0.0
  9
$THICKNESS
 40
0.0
  9
$LIMCHECK
 70
     0
  9
$CHAMFERA
 40
0.0
  9
$CHAMFERB
 40
0.0
  9
$CHAMFERC
 40
0.0
  9
$CHAMFERD
 40
0.0
  9
$SKPOLY
 70
     0
  9
$TDCREATE
 40
2460608.530339815
  9
$TDUCREATE
 40
2460608.405339815
  9
$TDUPDATE
 40
2460608.53034
  9
$TDUUPDATE
 40
2460608.40534
  9
$TDINDWG
 40
0.0000000116
  9
$TDUSRTIMER
 40
0.0000000116
  9
$USRTIMER
 70
     1
  9
$ANGBASE
 50
0.0
  9
$ANGDIR
 70
     0
  9
$PDMODE
 70
     0
  9
$PDSIZE
 40
-1.0
  9
$PLINEWID
 40
0.0
  9
$SPLFRAME
 70
     0
  9
$SPLINETYPE
 70
     6
  9
$SPLINESEGS
 70
     8
  9
$HANDSEED
  5
D2
  9
$SURFTAB1
 70
     6
  9
$SURFTAB2
 70
     6
  9
$SURFTYPE
 70
     6
  9
$SURFU
 70
     6
  9
$SURFV
 70
     6
  9
$UCSBASE
  2

  9
$UCSNAME
  2

  9
$UCSORG
 10
0.0
 20
0.0
 30
0.0
  9
$UCSXDIR
 10
1.0
 20
0.0
 30
0.0
  9
$UCSYDIR
 10
0.0
 20
1.0
 30
0.0
  9
$UCSORTHOREF
  2

  9
$UCSORTHOVIEW
 70
     0
  9
$UCSORGTOP
 10
0.0
 20
0.0
 30
0.0
  9
$UCSORGBOTTOM
 10
0.0
 20
0.0
 30
0.0
  9
$UCSORGLEFT
 10
0.0
 20
0.0
 30
0.0
  9
$UCSORGRIGHT
 10
0.0
 20
0.0
 30
0.0
  9
$UCSORGFRONT
 10
0.0
 20
0.0
 30
0.0
  9
$UCSORGBACK
 10
0.0
 20
0.0
 30
0.0
  9
$PUCSBASE
  2

  9
$PUCSNAME
  2

  9
$PUCSORG
 10
0.0
 20
0.0
 30
0.0
  9
$PUCSXDIR
 10
1.0
 20
0.0
 30
0.0
  9
$PUCSYDIR
 10
0.0
 20
1.0
 30
0.0
  9
$PUCSORTHOREF
  2

  9
$PUCSORTHOVIEW
 70
     0
  9
$PUCSORGTOP
 10
0.0
 20
0.0
 30
0.0
  9
$PUCSORGBOTTOM
 10
0.0
 20
0.0
 30
0.0
  9
$PUCSORGLEFT
 10
0.0
 20
0.0
 30
0.0
  9
$PUCSORGRIGHT
 10
0.0
 20
0.0
 30
0.0
  9
$PUCSORGFRONT
 10
0.0
 20
0.0
 30
0.0
  9
$PUCSORGBACK
 10
0.0
 20
0.0
 30
0.0
  9
$USERI1
 70
     0
  9
$USERI2
 70
     0
  9
$USERI3
 70
     0
  9
$USERI4
 70
     0
  9
$USERI5
 70
     0
  9
$USERR1
 40
0.0
  9
$USERR2
 40
0.0
  9
$USERR3
 40
0.0
  9
$USERR4
 40
0.0
  9
$USERR5
 40
0.0
  9
$WORLDVIEW
 70
     1
  9
$SHADEDGE
 70
     3
  9
$SHADEDIF
 70
    70
  9
$TILEMODE
 70
     1
  9
$MAXACTVP
 70
    64
  9
$PINSBASE
 10
0.0
 20
0.0
 30
0.0
  9
$PLIMCHECK
 70
     0
  9
$PEXTMIN
 10
1.0000000000E+20
 20
1.0000000000E+20
 30
1.0000000000E+20
  9
$PEXTMAX
 10
-1.0000000000E+20
 20
-1.0000000000E+20
 30
-1.0000000000E+20
  9
$PLIMMIN
 10
0.0
 20
0.0
  9
$PLIMMAX
 10
420.0
 20
297.0
  9
$UNITMODE
 70
     0
  9
$VISRETAIN
 70
     1
  9
$PLINEGEN
 70
     0
  9
$PSLTSCALE
 70
     1
  9
$TREEDEPTH
 70
  3020
  9
$CMLSTYLE
  2
Standard
  9
$CMLJUST
 70
     0
  9
$CMLSCALE
 40
20.0
  9
$PROXYGRAPHICS
 70
     1
  9
$MEASUREMENT
 70
     1
  9
$CELWEIGHT
370
    -1
  9
$ENDCAPS
280
     0
  9
$JOINSTYLE
280
     0
  9
$LWDISPLAY
290
     1
  9
$INSUNITS
 70
     4
  9
$HYPERLINKBASE
  1

  9
$STYLESHEET
  1

  9
$XEDIT
290
     1
  9
$CEPSNTYPE
380
     0
  9
$PSTYLEMODE
290
     1
  9
$FINGERPRINTGUID
  2
{9c4ebbf3-9c3c-4521-9d65-68a82f55f6be}
  9
$VERSIONGUID
  2
{FAEB1C32-E019-11D5-929B-00C0DF256EC4}
  9
$EXTNAMES
290
     1
  9
$PSVPSCALE
 40
0.0
  9
$OLESTARTUP
290
     0
  0
ENDSEC
  0
SECTION
  2
CLASSES
  0
CLASS
  1
ACDBDICTIONARYWDFLT
  2
AcDbDictionaryWithDefault
  3
ObjectDBX Classes
 90
        0
280
     0
281
     0
  0
CLASS
  1
VISUALSTYLE
  2
AcDbVisualStyle
  3
ObjectDBX Classes
 90
     4095
280
     0
281
     0
  0
CLASS
  1
MATERIAL
  2
AcDbMaterial
  3
ObjectDBX Classes
 90
     1153
280
     0
281
     0
  0
CLASS
  1
SCALE
  2
AcDbScale
  3
ObjectDBX Classes
 90
     1153
280
     0
281
     0
  0
CLASS
  1
TABLESTYLE
  2
AcDbTableStyle
  3
ObjectDBX Classes
 90
     4095
280
     0
281
     0
  0
CLASS
  1
MLEADERSTYLE
  2
AcDbMLeaderStyle
  3
ACDB_MLEADERSTYLE_CLASS
 90
     4095
280
     0
281
     0
  0
CLASS
  1
SUN
  2
AcDbSun
  3
SCENEOE
 90
     1153
280
     0
281
     0
  0
CLASS
  1
ACDBPLACEHOLDER
  2
AcDbPlaceHolder
  3
ObjectDBX Classes
 90
        0
280
     0
281
     0
  0
CLASS
  1
LAYOUT
  2
AcDbLayout
  3
ObjectDBX Classes
 90
        0
280
     0
281
     0
  0
ENDSEC
  0
SECTION
  2
TABLES
  0
TABLE
  2
VPORT
  5
8
330
0
100
AcDbSymbolTable
 70
     1
  0
VPORT
  5
29
330
8
100
AcDbSymbolTableRecord
100
AcDbViewportTableRecord
  2
*Active
 70
     0
 10
0.0
 20
0.0
 11
1.0
 21
1.0
 12
139.7
 22
107.95
 13
0.0
 23
0.0
 14
10.0
 24
10.0
 15
10.0
 25
10.0
 16
0.0
 26
0.0
 36
1.0
 17
0.0
 27
0.0
 37
0.0
 40
215.9
 41
1.2941176471
 42
50.0
 43
0.0
 44
0.0
 50
0.0
 51
0.0
 71
     0
 72
  2000
 73
     1
 74
     3
 75
     0
 76
     0
 77
     0
 78
     0
281
     0
 65
     1
110
0.0
120
0.0
130
0.0
111
1.0
121
0.0
131
0.0
112
0.0
122
1.0
132
0.0
 79
     0
146
0.0
  0
ENDTAB
  0
TABLE
  2
LTYPE
  5
5
330
0
100
AcDbSymbolTable
 70
     6
  0
LTYPE
  5
14
330
5
100
AcDbSymbolTableRecord
100
AcDbLinetypeTableRecord
  2
ByBlock
 70
     0
  3

 72
    65
 73
     0
 40
0.0
  0
LTYPE
  5
15
330
5
100
AcDbSymbolTableRecord
100
AcDbLinetypeTableRecord
  2
ByLayer
 70
     0
  3

 72
    65
 73
     0
 40
0.0
  0
LTYPE
  5
16
330
5
100
AcDbSymbolTableRecord
100
AcDbLinetypeTableRecord
  2
Continuous
 70
     0
  3
Solid line
 72
    65
 73
     0
 40
0.0
  0
LTYPE
  5
6E
330
5
100
AcDbSymbolTableRecord
100
AcDbLinetypeTableRecord
  2
HIDDEN
 70
     0
  3
Hidden __ __ __ __ __ __ __ __ __ __ __ __ __ __
 72
    65
 73
     2
 40
1.905
 49
1.27
 74
     0
 49
-0.635
 74
     0
  0
LTYPE
  5
6F
330
5
100
AcDbSymbolTableRecord
100
AcDbLinetypeTableRecord
  2
PHANTOM
 70
     0
  3
Phantom ______  __  __  ______  __  __  ______
 72
    65
 73
     6
 40
12.7
 49
6.35
 74
     0
 49
-1.27
 74
     0
 49
1.27
 74
     0
 49
-1.27
 74
     0
 49
1.27
 74
     0
 49
-1.27
 74
     0
  0
LTYPE
  5
70
330
5
100
AcDbSymbolTableRecord
100
AcDbLinetypeTableRecord
  2
CENTER
 70
     0
  3
Center ____ _ ____ _ ____ _ ____ _ ____ _ ____
 72
    65
 73
     4
 40
10.16
 49
6.35
 74
     0
 49
-1.27
 74
     0
 49
1.27
 74
     0
 49
-1.27
 74
     0
  0
LTYPE
  5
71
330
5
100
AcDbSymbolTableRecord
100
AcDbLinetypeTableRecord
  2
CENTERX2
 70
     0
  3
Center (2x) ________  __  ________  __  _____
 72
    65
 73
     4
 40
20.32
 49
12.7
 74
     0
 49
-2.54
 74
     0
 49
2.54
 74
     0
 49
-2.54
 74
     0
  0
LTYPE
  5
72
330
5
100
AcDbSymbolTableRecord
100
AcDbLinetypeTableRecord
  2
DOT2
 70
     0
  3
Dot (.5x) ........................................
 72
    65
 73
     2
 40
0.635
 49
0.0
 74
     0
 49
-0.635
 74
     0
  0
ENDTAB
  0
TABLE
  2
LAYER
  5
2
330
0
100
AcDbSymbolTable
 70
    17
  0
LAYER
  5
10
330
2
100
AcDbSymbolTableRecord
100
AcDbLayerTableRecord
  2
0
 70
     0
 62
     7
  6
Continuous
370
    -3
390
F
  0
LAYER
  5
73
330
2
100
AcDbSymbolTableRecord
100
AcDbLayerTableRecord
  2
FORMAT
 70
     0
 62
     7
  6
Continuous
370
    -3
390
F
  0
LAYER
  5
74
330
2
100
AcDbSymbolTableRecord
100
AcDbLayerTableRecord
  2
YARDIMCI_GEOMETRI
 70
     0
 62
    -6
  6
Continuous
290
     0
370
    -3
390
F
  0
LAYER
  5
75
330
2
100
AcDbSymbolTableRecord
100
AcDbLayerTableRecord
  2
SAYFA_CERCEVESI
 70
     0
 62
     7
  6
Continuous
370
    25
390
F
  0
LAYER
  5
76
330
2
100
AcDbSymbolTableRecord
100
AcDbLayerTableRecord
  2
ANTET
 70
     0
 62
     7
  6
Continuous
370
    -3
390
F
  0
LAYER
  5
77
330
2
100
AcDbSymbolTableRecord
100
AcDbLayerTableRecord
  2
OLCU
 70
     0
 62
   150
  6
Continuous
370
    -3
390
F
  0
LAYER
  5
78
330
2
100
AcDbSymbolTableRecord
100
AcDbLayerTableRecord
  2
METIN
 70
     0
 62
    96
  6
Continuous
370
    -3
390
F
  0
LAYER
  5
79
330
2
100
AcDbSymbolTableRecord
100
AcDbLayerTableRecord
  2
BALON
 70
     0
 62
     5
  6
Continuous
370
    -3
390
F
  0
LAYER
  5
7A
330
2
100
AcDbSymbolTableRecord
100
AcDbLayerTableRecord
  2
VURGU
 70
     0
 62
     7
  6
Continuous
370
    -3
390
F
  0
LAYER
  5
7B
330
2
100
AcDbSymbolTableRecord
100
AcDbLayerTableRecord
  2
SILIK
 70
     0
 62
     7
  6
Continuous
370
    -3
390
F
  0
LAYER
  5
7C
330
2
100
AcDbSymbolTableRecord
100
AcDbLayerTableRecord
  2
MODEL
 70
     0
 62
     7
  6
Continuous
370
    -3
390
F
  0
LAYER
  5
7D
330
2
100
AcDbSymbolTableRecord
100
AcDbLayerTableRecord
  2
DETAYLANDıRMA
 70
     0
 62
   190
  6
Continuous
370
    -3
390
F
  0
LAYER
  5
7E
330
2
100
AcDbSymbolTableRecord
100
AcDbLayerTableRecord
  2
TOLERANS
 70
     0
 62
   230
  6
Continuous
370
    -3
390
F
  0
LAYER
  5
7F
330
2
100
AcDbSymbolTableRecord
100
AcDbLayerTableRecord
  2
MERKEZ_CIZGILERI
 70
     0
 62
    30
  6
Continuous
370
    -3
390
F
  0
LAYER
  5
80
330
2
100
AcDbSymbolTableRecord
100
AcDbLayerTableRecord
  2
KESIT-DETAY_CIZGILERI
 70
     0
 62
     7
  6
Continuous
370
    -3
390
F
  0
LAYER
  5
81
330
2
100
AcDbSymbolTableRecord
100
AcDbLayerTableRecord
  2
\U+041E\U+0421\U+0415\U+0412\U+042B\U+0415
 70
     0
 62
     7
  6
Continuous
370
    -3
390
F
  0
LAYER
  5
82
330
2
100
AcDbSymbolTableRecord
100
AcDbLayerTableRecord
  2
\U+0412\U+041E\U+0414\U+042F\U+041D\U+042B\U+0415_\U+0417\U+041D\U+0410\U+041A\U+0418
 70
     0
 62
    11
  6
Continuous
370
    -3
390
F
  0
ENDTAB
  0
TABLE
  2
STYLE
  5
3
330
0
100
AcDbSymbolTable
 70
     1
  0
STYLE
  5
11
330
3
100
AcDbSymbolTableRecord
100
AcDbTextStyleTableRecord
  2
Standard
 70
     0
 40
0.0
 41
1.0
 50
0.0
 71
     0
 42
3.5
  3
txt
  4

  0
ENDTAB
  0
TABLE
  2
VIEW
  5
6
330
0
100
AcDbSymbolTable
 70
     0
  0
ENDTAB
  0
TABLE
  2
UCS
  5
7
330
0
100
AcDbSymbolTable
 70
     0
  0
ENDTAB
  0
TABLE
  2
APPID
  5
9
330
0
100
AcDbSymbolTable
 70
     1
  0
APPID
  5
12
330
9
100
AcDbSymbolTableRecord
100
AcDbRegAppTableRecord
  2
ACAD
 70
     0
  0
ENDTAB
  0
TABLE
  2
DIMSTYLE
  5
A
330
0
100
AcDbSymbolTable
 70
     1
100
AcDbDimStyleTable
  0
DIMSTYLE
105
27
330
A
100
AcDbSymbolTableRecord
100
AcDbDimStyleTableRecord
  2
ISO-25
 70
     0
 41
2.5
 42
0.625
 43
3.75
 44
1.25
 73
     0
 74
     0
 77
     1
 78
     8
140
2.5
141
2.5
143
0.0393700787
147
0.625
171
     3
172
     1
178
     0
271
     2
272
     2
274
     3
278
    44
283
     0
284
     8
340
11
  0
ENDTAB
  0
TABLE
  2
BLOCK_RECORD
  5
1
330
0
100
AcDbSymbolTable
 70
     3
  0
BLOCK_RECORD
  5
1F
330
1
100
AcDbSymbolTableRecord
100
AcDbBlockTableRecord
  2
*Model_Space
340
22
  0
BLOCK_RECORD
  5
1B
330
1
100
AcDbSymbolTableRecord
100
AcDbBlockTableRecord
  2
*Paper_Space
340
1E
  0
BLOCK_RECORD
  5
23
330
1
100
AcDbSymbolTableRecord
100
AcDbBlockTableRecord
  2
*Paper_Space0
340
26
  0
BLOCK_RECORD
  5
88
330
1
100
AcDbSymbolTableRecord
100
AcDbBlockTableRecord
  2
SW_CENTERMARKSYMBOL_0
340
0
102
{BLKREFS
331
93
102
}
  0
BLOCK_RECORD
  5
9E
330
1
100
AcDbSymbolTableRecord
100
AcDbBlockTableRecord
  2
SW_CENTERMARKSYMBOL_1
340
0
102
{BLKREFS
331
A9
102
}
  0
ENDTAB
  0
ENDSEC
  0
SECTION
  2
BLOCKS
  0
BLOCK
  5
20
330
1F
100
AcDbEntity
  8
0
100
AcDbBlockBegin
  2
*Model_Space
 70
     0
 10
0.0
 20
0.0
 30
0.0
  3
*Model_Space
  1

  0
ENDBLK
  5
21
330
1F
100
AcDbEntity
  8
0
100
AcDbBlockEnd
  0
BLOCK
  5
1C
330
1B
100
AcDbEntity
 67
     1
  8
0
100
AcDbBlockBegin
  2
*Paper_Space
 70
     0
 10
0.0
 20
0.0
 30
0.0
  3
*Paper_Space
  1

  0
ENDBLK
  5
1D
330
1B
100
AcDbEntity
 67
     1
  8
0
100
AcDbBlockEnd
  0
BLOCK
  5
24
330
23
100
AcDbEntity
  8
0
100
AcDbBlockBegin
  2
*Paper_Space0
 70
     0
 10
0.0
 20
0.0
 30
0.0
  3
*Paper_Space0
  1

  0
ENDBLK
  5
25
330
23
100
AcDbEntity
  8
0
100
AcDbBlockEnd
  0
BLOCK
  5
89
330
88
100
AcDbEntity
  8
0
100
AcDbBlockBegin
  2
SW_CENTERMARKSYMBOL_0
 70
     0
 10
0.0
 20
0.0
 30
0.0
  3
SW_CENTERMARKSYMBOL_0
  1

  0
LINE
  5
8B
330
88
100
AcDbEntity
  8
FORMAT
 62
     0
100
AcDbLine
 10
0.0
 20
0.0
 30
0.0
 11
0.0
 21
2.5
 31
0.0
  0
LINE
  5
8C
330
88
100
AcDbEntity
  8
FORMAT
 62
     0
100
AcDbLine
 10
0.0
 20
0.0
 30
0.0
 11
-2.5
 21
0.0
 31
0.0
  0
LINE
  5
8D
330
88
100
AcDbEntity
  8
FORMAT
 62
     0
100
AcDbLine
 10
0.0
 20
0.0
 30
0.0
 11
0.0
 21
-2.5
 31
0.0
  0
LINE
  5
8E
330
88
100
AcDbEntity
  8
FORMAT
 62
     0
100
AcDbLine
 10
0.0
 20
0.0
 30
0.0
 11
2.5
 21
0.0
 31
0.0
  0
LINE
  5
8F
330
88
100
AcDbEntity
  8
FORMAT
 62
     0
100
AcDbLine
 10
0.0
 20
5.0
 30
0.0
 11
0.0
 21
82.5
 31
0.0
  0
LINE
  5
90
330
88
100
AcDbEntity
  8
FORMAT
 62
     0
100
AcDbLine
 10
-5.0
 20
0.0
 30
0.0
 11
-82.5
 21
0.0
 31
0.0
  0
LINE
  5
91
330
88
100
AcDbEntity
  8
FORMAT
 62
     0
100
AcDbLine
 10
0.0
 20
-5.0
 30
0.0
 11
0.0
 21
-82.5
 31
0.0
  0
LINE
  5
92
330
88
100
AcDbEntity
  8
FORMAT
 62
     0
100
AcDbLine
 10
5.0
 20
0.0
 30
0.0
 11
82.5
 21
0.0
 31
0.0
  0
ENDBLK
  5
8A
330
88
100
AcDbEntity
  8
0
100
AcDbBlockEnd
  0
BLOCK
  5
9F
330
9E
100
AcDbEntity
  8
0
100
AcDbBlockBegin
  2
SW_CENTERMARKSYMBOL_1
 70
     0
 10
0.0
 20
0.0
 30
0.0
  3
SW_CENTERMARKSYMBOL_1
  1

  0
LINE
  5
A1
330
9E
100
AcDbEntity
  8
FORMAT
 62
     0
100
AcDbLine
 10
0.0
 20
0.0
 30
0.0
 11
0.0
 21
2.5
 31
0.0
  0
LINE
  5
A2
330
9E
100
AcDbEntity
  8
FORMAT
 62
     0
100
AcDbLine
 10
0.0
 20
0.0
 30
0.0
 11
-2.5
 21
0.0
 31
0.0
  0
LINE
  5
A3
330
9E
100
AcDbEntity
  8
FORMAT
 62
     0
100
AcDbLine
 10
0.0
 20
0.0
 30
0.0
 11
0.0
 21
-2.5
 31
0.0
  0
LINE
  5
A4
330
9E
100
AcDbEntity
  8
FORMAT
 62
     0
100
AcDbLine
 10
0.0
 20
0.0
 30
0.0
 11
2.5
 21
0.0
 31
0.0
  0
LINE
  5
A5
330
9E
100
AcDbEntity
  8
FORMAT
 62
     0
100
AcDbLine
 10
0.0
 20
5.0
 30
0.0
 11
0.0
 21
82.5
 31
0.0
  0
LINE
  5
A6
330
9E
100
AcDbEntity
  8
FORMAT
 62
     0
100
AcDbLine
 10
-5.0
 20
0.0
 30
0.0
 11
-82.5
 21
0.0
 31
0.0
  0
LINE
  5
A7
330
9E
100
AcDbEntity
  8
FORMAT
 62
     0
100
AcDbLine
 10
0.0
 20
-5.0
 30
0.0
 11
0.0
 21
-82.5
 31
0.0
  0
LINE
  5
A8
330
9E
100
AcDbEntity
  8
FORMAT
 62
     0
100
AcDbLine
 10
5.0
 20
0.0
 30
0.0
 11
82.5
 21
0.0
 31
0.0
  0
ENDBLK
  5
A0
330
9E
100
AcDbEntity
  8
0
100
AcDbBlockEnd
  0
ENDSEC
  0
SECTION
  2
ENTITIES
  0
LINE
  5
83
330
1F
100
AcDbEntity
  8
0
  6
Continuous
 62
     7
370
    25
100
AcDbLine
 10
64.0334687423
 20
22.5789441008
 30
0.0
 11
272.0334687423
 21
22.5789441008
 31
0.0
  0
LINE
  5
84
330
1F
100
AcDbEntity
  8
0
  6
Continuous
 62
     7
370
    25
100
AcDbLine
 10
272.0334687423
 20
182.5789441008
 30
0.0
 11
64.0334687423
 21
182.5789441008
 31
0.0
  0
CIRCLE
  5
85
330
1F
100
AcDbEntity
  8
0
  6
Continuous
 62
     7
370
    25
100
AcDbCircle
 10
64.0334687423
 20
102.5789441008
 30
0.0
 40
65.39999999999999
  0
CIRCLE
  5
86
330
1F
100
AcDbEntity
  8
0
  6
Continuous
 62
     7
370
    25
100
AcDbCircle
 10
64.0334687423
 20
102.5789441008
 30
0.0
 40
79.99999999999999
  0
LINE
  5
87
330
1F
100
AcDbEntity
  8
0
  6
Continuous
 62
     7
370
    25
100
AcDbLine
 10
272.0334687423
 20
182.5789441008
 30
0.0
 11
272.0334687423
 21
22.5789441008
 31
0.0
  0
INSERT
  5
93
330
1F
100
AcDbEntity
  8
FORMAT
 62
     7
100
AcDbBlockReference
  2
SW_CENTERMARKSYMBOL_0
 10
64.0334687423
 20
102.5789441008
 30
0.0
  0
LINE
  5
94
330
1F
100
AcDbEntity
  8
0
  6
Continuous
 62
     7
370
    25
100
AcDbLine
 10
-320.7511438614
 20
182.5789441008
 30
0.0
 11
-529.2511438614
 21
182.5789441008
 31
0.0
  0
LINE
  5
95
330
1F
100
AcDbEntity
  8
0
  6
Continuous
 62
     7
370
    25
100
AcDbLine
 10
-112.2511438614
 20
182.5789441008
 30
0.0
 11
-320.7511438614
 21
182.5789441008
 31
0.0
  0
LINE
  5
96
330
1F
100
AcDbEntity
  8
0
  6
Continuous
 62
     7
370
    25
100
AcDbLine
 10
-320.7511438614
 20
22.5789441008
 30
0.0
 11
-112.2511438614
 21
22.5789441008
 31
0.0
  0
LINE
  5
97
330
1F
100
AcDbEntity
  8
0
  6
Continuous
 62
     7
370
    25
100
AcDbLine
 10
-529.2511438614
 20
22.5789441008
 30
0.0
 11
-320.7511438614
 21
22.5789441008
 31
0.0
  0
CIRCLE
  5
98
330
1F
100
AcDbEntity
  8
0
  6
Continuous
 62
     7
370
    25
100
AcDbCircle
 10
-320.7511438614
 20
102.5789441008
 30
0.0
 40
65.39999999999998
  0
CIRCLE
  5
99
330
1F
100
AcDbEntity
  8
0
  6
Continuous
 62
     7
370
    25
100
AcDbCircle
 10
-320.7511438614
 20
102.5789441008
 30
0.0
 40
79.99999999999997
  0
LINE
  5
9A
330
1F
100
AcDbEntity
  8
0
  6
Continuous
 62
     7
370
    25
100
AcDbLine
 10
-529.2511438614
 20
102.5789441008
 30
0.0
 11
-529.2511438614
 21
182.5789441008
 31
0.0
  0
LINE
  5
9B
330
1F
100
AcDbEntity
  8
0
  6
Continuous
 62
     7
370
    25
100
AcDbLine
 10
-529.2511438614
 20
22.5789441008
 30
0.0
 11
-529.2511438614
 21
102.5789441008
 31
0.0
  0
LINE
  5
9C
330
1F
100
AcDbEntity
  8
0
  6
Continuous
 62
     7
370
    25
100
AcDbLine
 10
-112.2511438614
 20
102.5789441008
 30
0.0
 11
-112.2511438614
 21
182.5789441008
 31
0.0
  0
LINE
  5
9D
330
1F
100
AcDbEntity
  8
0
  6
Continuous
 62
     7
370
    25
100
AcDbLine
 10
-112.2511438614
 20
22.5789441008
 30
0.0
 11
-112.2511438614
 21
102.5789441008
 31
0.0
  0
INSERT
  5
A9
330
1F
100
AcDbEntity
  8
FORMAT
 62
     7
100
AcDbBlockReference
  2
SW_CENTERMARKSYMBOL_1
 10
-320.7511438614
 20
102.5789441008
 30
0.0
  0
LINE
  5
AA
330
1F
100
AcDbEntity
  8
0
  6
Continuous
 62
     7
370
    25
100
AcDbLine
 10
144.0334687423
 20
587.6693127599
 30
0.0
 11
144.0334687423
 21
716.1693127599
 31
0.0
  0
LINE
  5
AB
330
1F
100
AcDbEntity
  8
0
  6
Continuous
 62
     7
370
    25
100
AcDbLine
 10
144.0334687423
 20
299.1693127599
 30
0.0
 11
144.0334687423
 21
427.6693127599
 31
0.0
  0
LINE
  5
AC
330
1F
100
AcDbEntity
  8
0
  6
Continuous
 62
     7
370
    25
100
AcDbLine
 10
-15.9665312577
 20
716.1693127599
 30
0.0
 11
-15.9665312577
 21
299.1693127599
 31
0.0
  0
LINE
  5
AD
330
1F
100
AcDbEntity
  8
0
  6
Continuous
 62
     7
370
    25
100
AcDbLine
 10
144.0334687423
 20
427.6693127599
 30
0.0
 11
272.0334687423
 21
427.6693127599
 31
0.0
  0
LINE
  5
AE
330
1F
100
AcDbEntity
  8
0
  6
Continuous
 62
     7
370
    25
100
AcDbLine
 10
272.0334687423
 20
587.6693127599
 30
0.0
 11
144.0334687423
 21
587.6693127599
 31
0.0
  0
LINE
  5
AF
330
1F
100
AcDbEntity
  8
0
  6
Continuous
 62
     7
370
    25
100
AcDbLine
 10
144.0334687423
 20
587.6693127599
 30
0.0
 11
64.0334687423
 21
507.6693127599
 31
0.0
  0
LINE
  5
B0
330
1F
100
AcDbEntity
  8
0
  6
Continuous
 62
     7
370
    25
100
AcDbLine
 10
64.0334687423
 20
507.6693127599
 30
0.0
 11
144.0334687423
 21
427.6693127599
 31
0.0
  0
LINE
  5
B1
330
1F
100
AcDbEntity
  8
0
  6
Continuous
 62
     7
370
    25
100
AcDbLine
 10
-15.9665312577
 20
716.1693127599
 30
0.0
 11
144.0334687423
 21
716.1693127599
 31
0.0
  0
LINE
  5
B2
330
1F
100
AcDbEntity
  8
0
  6
Continuous
 62
     7
370
    25
100
AcDbLine
 10
-15.9665312577
 20
299.1693127599
 30
0.0
 11
144.0334687423
 21
299.1693127599
 31
0.0
  0
LINE
  5
B3
330
1F
100
AcDbEntity
  8
0
  6
Continuous
 62
     7
370
    25
100
AcDbLine
 10
272.0334687423
 20
587.6693127599
 30
0.0
 11
272.0334687423
 21
427.6693127599
 31
0.0
  0
LINE
  5
B4
330
1F
100
AcDbEntity
  8
0
  6
Continuous
 62
     7
370
    25
100
AcDbLine
 10
564.3704631605
 20
22.5789441008
 30
0.0
 11
772.8704631605
 21
22.5789441008
 31
0.0
  0
LINE
  5
B5
330
1F
100
AcDbEntity
  8
0
  6
Continuous
 62
     7
370
    25
100
AcDbLine
 10
355.8704631605
 20
22.5789441008
 30
0.0
 11
564.3704631605
 21
22.5789441008
 31
0.0
  0
LINE
  5
B6
330
1F
100
AcDbEntity
  8
0
  6
Continuous
 62
     7
370
    25
100
AcDbLine
 10
564.3704631605
 20
182.5789441008
 30
0.0
 11
355.8704631605
 21
182.5789441008
 31
0.0
  0
LINE
  5
B7
330
1F
100
AcDbEntity
  8
0
  6
Continuous
 62
     7
370
    25
100
AcDbLine
 10
772.8704631605
 20
182.5789441008
 30
0.0
 11
564.3704631605
 21
182.5789441008
 31
0.0
  0
LINE
  5
B8
330
1F
100
AcDbEntity
  8
0
  6
Continuous
 62
     7
370
    25
100
AcDbLine
 10
772.8704631605
 20
182.5789441008
 30
0.0
 11
772.8704631605
 21
22.5789441008
 31
0.0
  0
LINE
  5
B9
330
1F
100
AcDbEntity
  8
0
  6
Continuous
 62
     7
370
    25
100
AcDbLine
 10
355.8704631605
 20
182.5789441008
 30
0.0
 11
355.8704631605
 21
22.5789441008
 31
0.0
  0
LINE
  5
BA
330
1F
100
AcDbEntity
  8
0
  6
Continuous
 62
     7
370
    25
100
AcDbLine
 10
-15.9665312577
 20
-92.6338674905
 30
0.0
 11
-15.9665312577
 21
-509.6338674905
 31
0.0
  0
LINE
  5
BB
330
1F
100
AcDbEntity
  8
0
  6
Continuous
 62
     7
370
    25
100
AcDbLine
 10
144.0334687423
 20
-221.1338674905
 30
0.0
 11
144.0334687423
 21
-92.6338674905
 31
0.0
  0
LINE
  5
BC
330
1F
100
AcDbEntity
  8
0
  6
Continuous
 62
     7
370
    25
100
AcDbLine
 10
144.0334687423
 20
-509.6338674905
 30
0.0
 11
144.0334687423
 21
-381.1338674905
 31
0.0
  0
LINE
  5
BD
330
1F
100
AcDbEntity
  8
0
  6
Continuous
 62
     7
370
    25
100
AcDbLine
 10
144.0334687423
 20
-381.1338674905
 30
0.0
 11
272.0334687423
 21
-381.1338674905
 31
0.0
  0
LINE
  5
BE
330
1F
100
AcDbEntity
  8
0
  6
Continuous
 62
     7
370
    25
100
AcDbLine
 10
272.0334687423
 20
-221.1338674905
 30
0.0
 11
144.0334687423
 21
-221.1338674905
 31
0.0
  0
LINE
  5
BF
330
1F
100
AcDbEntity
  8
0
  6
Continuous
 62
     7
370
    25
100
AcDbLine
 10
64.0334687423
 20
-301.1338674905
 30
0.0
 11
144.0334687423
 21
-381.1338674905
 31
0.0
  0
LINE
  5
C0
330
1F
100
AcDbEntity
  8
0
  6
Continuous
 62
     7
370
    25
100
AcDbLine
 10
144.0334687423
 20
-221.1338674905
 30
0.0
 11
64.0334687423
 21
-301.1338674905
 31
0.0
  0
LINE
  5
C1
330
1F
100
AcDbEntity
  8
0
  6
Continuous
 62
     7
370
    25
100
AcDbLine
 10
144.0334687423
 20
-509.6338674905
 30
0.0
 11
-15.9665312577
 21
-509.6338674905
 31
0.0
  0
LINE
  5
C2
330
1F
100
AcDbEntity
  8
0
  6
Continuous
 62
     7
370
    25
100
AcDbLine
 10
144.0334687423
 20
-92.6338674905
 30
0.0
 11
-15.9665312577
 21
-92.6338674905
 31
0.0
  0
LINE
  5
C3
330
1F
100
AcDbEntity
  8
0
  6
Continuous
 62
     7
370
    25
100
AcDbLine
 10
272.0334687423
 20
-221.1338674905
 30
0.0
 11
272.0334687423
 21
-381.1338674905
 31
0.0
  0
LINE
  5
C4
330
1F
100
AcDbEntity
  8
0
  6
Continuous
 62
     7
370
    25
100
AcDbLine
 10
566.4696696955
 20
-188.6092796493
 30
0.0
 11
459.0346551236
 21
-126.5883658891
 31
0.0
  0
LINE
  5
C5
330
1F
100
AcDbEntity
  8
0
  6
Continuous
 62
     7
370
    25
100
AcDbLine
 10
753.8981828784
 20
-296.8094572042
 30
0.0
 11
726.4826735305
 21
-280.9828205371
 31
0.0
  0
LINE
  5
C6
330
1F
100
AcDbEntity
  8
0
  6
Continuous
 62
     7
370
    25
100
AcDbLine
 10
379.0411565127
 20
-265.15618387
 30
0.0
 11
673.9046842675
 21
-435.3772751851
 31
0.0
  0
LINE
  5
C7
330
1F
100
AcDbEntity
  8
0
  6
Continuous
 62
     7
370
    25
100
AcDbLine
 10
646.4631683064
 20
-327.1770976302
 30
0.0
 11
753.5446294878
 21
-265.360285898
 31
0.0
  0
LINE
  5
C8
330
1F
100
AcDbEntity
  8
0
  6
Continuous
 62
     7
370
    25
100
AcDbLine
 10
673.5511308769
 20
-126.7924679171
 30
0.0
 11
566.4696696955
 21
-188.6092796493
 31
0.0
  0
LINE
  5
C9
330
1F
100
AcDbEntity
  8
0
  6
Continuous
 62
     7
370
    25
100
AcDbLine
 10
566.4696696955
 20
-188.6092796493
 30
0.0
 11
566.4696696955
 21
-346.306085488
 31
0.0
  0
ELLIPSE
  5
CA
330
1F
100
AcDbEntity
  8
0
  6
Continuous
 62
     7
370
    25
100
AcDbEllipse
 10
566.4696696955
 20
-280.9828205371
 30
0.0
 11
113.1370849898476
 21
1.705302565824240E-13
 31
0.0
210
0.0
220
0.0
230
1.0
 40
0.5773815452
 41
4.712388980384697
 42
5.49770587972005
  0
LWPOLYLINE
  5
CB
330
1F
100
AcDbEntity
  8
0
  6
Continuous
 62
     7
370
    25
100
AcDbPolyline
 90
       95
 70
   128
 43
0.0
 10
475.6064483131
 20
-163.2159504067
 10
475.4801238916
 20
-158.9257630321
 10
475.1017148226
 20
-154.8005877482
 10
474.4729111729
 20
-150.8588485895
 10
473.5965213322
 20
-147.1181503197
 10
472.4764594704
 20
-143.5951998054
 10
471.1177280555
 20
-140.3057313989
 10
469.526395512
 20
-137.2644366645
 10
467.7095691172
 20
-134.4848987629
 10
465.6753632589
 20
-131.979531785
 10
463.4328631943
 20
-129.759525308
 10
460.9920844729
 20
-127.8347944197
 10
458.3639282052
 20
-126.2139354354
 10
455.5601323749
 20
-124.904187505
 10
452.593219415
 20
-123.9114002805
 10
449.4764402788
 20
-123.2400077907
 10
446.2237152587
 20
-122.8930086376
 10
442.8495718142
 20
-122.8719526034
 10
439.3690796889
 20
-123.1769337296
 10
435.7977836057
 20
-123.8065898965
 10
432.1516338397
 20
-124.7581089067
 10
428.446914981
 20
-126.0272410454
 10
424.7001732033
 20
-127.6083180603
 10
420.928142365
 20
-129.4942784777
 10
417.1476692713
 20
-131.6766991406
 10
413.3756384329
 20
-134.1458328284
 10
409.6288966552
 20
-136.8906517907
 10
405.9241777965
 20
-139.8988969997
 10
402.2780280306
 20
-143.1571329021
 10
398.7067319474
 20
-146.6508074254
 10
395.2262398221
 20
-150.364316971
 10
391.8520963776
 20
-154.2810761038
 10
388.5993713574
 20
-158.3835916268
 10
385.4825922213
 20
-162.6535407098
 10
382.5156792613
 20
-167.0718527235
 10
379.7118834311
 20
-171.6187944139
 10
377.0837271633
 20
-176.2740580358
 10
374.642948442
 20
-181.0168520516
 10
372.4004483774
 20
-185.8259939919
 10
370.3662425191
 20
-190.6800050615
 10
368.5494161243
 20
-195.5572060685
 10
366.9580835807
 20
-200.4358142494
 10
365.5993521659
 20
-205.2940405555
 10
364.479290304
 20
-210.110186969
 10
363.6029004634
 20
-214.8627434109
 10
362.9740968137
 20
-219.5304838102
 10
362.5956877447
 20
-224.0925609053
 10
362.4693633232
 20
-228.5285993525
 10
362.5956877447
 20
-232.8187867271
 10
362.9740968137
 20
-236.9439620109
 10
363.6029004634
 20
-240.8857011697
 10
364.479290304
 20
-244.6263994395
 10
365.5993521659
 20
-248.1493499538
 10
366.9580835807
 20
-251.4388183603
 10
368.5494161243
 20
-254.4801130947
 10
370.3662425191
 20
-257.2596509963
 10
372.4004483774
 20
-259.7650179742
 10
374.642948442
 20
-261.9850244512
 10
377.0837271633
 20
-263.9097553395
 10
379.7118834311
 20
-265.5306143238
 10
382.5156792613
 20
-266.8403622542
 10
385.4825922213
 20
-267.8331494787
 10
388.5993713574
 20
-268.5045419684
 10
391.8520963776
 20
-268.8515411216
 10
395.2262398221
 20
-268.8725971558
 10
398.7067319474
 20
-268.5676160295
 10
402.2780280306
 20
-267.9379598627
 10
405.9241777965
 20
-266.9864408525
 10
409.6288966552
 20
-265.7173087138
 10
413.3756384329
 20
-264.1362316989
 10
417.1476692713
 20
-262.2502712815
 10
420.928142365
 20
-260.0678506186
 10
424.7001732033
 20
-257.5987169308
 10
428.446914981
 20
-254.8538979685
 10
432.1516338397
 20
-251.8456527595
 10
435.7977836057
 20
-248.5874168571
 10
439.3690796889
 20
-245.0937423338
 10
442.8495718142
 20
-241.3802327882
 10
446.2237152587
 20
-237.4634736553
 10
449.4764402788
 20
-233.3609581323
 10
452.593219415
 20
-229.0910090494
 10
455.5601323749
 20
-224.6726970357
 10
458.3639282052
 20
-220.1257553452
 10
460.9920844729
 20
-215.4704917234
 10
463.4328631943
 20
-210.7276977076
 10
465.6753632589
 20
-205.9185557672
 10
467.7095691172
 20
-201.0645446977
 10
469.526395512
 20
-196.1873436906
 10
471.1177280555
 20
-191.3087355098
 10
472.4764594704
 20
-186.4505092036
 10
473.5965213322
 20
-181.6343627901
 10
474.4729111729
 20
-176.8818063483
 10
475.1017148226
 20
-172.214065949
 10
475.4801238916
 20
-167.6519888538
 10
475.6064483131
 20
-163.2159504067
  0
LWPOLYLINE
  5
CC
330
1F
100
AcDbEntity
  8
0
  6
Continuous
 62
     7
370
    25
100
AcDbPolyline
 90
       13
 70
   128
 43
0.0
 10
770.4699760678
 20
-333.4370417217
 10
770.3436516463
 20
-329.1468543471
 10
769.9652425774
 20
-325.0216790633
 10
769.3364389277
 20
-321.0799399045
 10
768.460049087
 20
-317.3392416347
 10
767.3399872252
 20
-313.8162911204
 10
765.9812558103
 20
-310.5268227139
 10
764.3899232668
 20
-307.4855279795
 10
762.573096872
 20
-304.7059900779
 10
760.5388910137
 20
-302.2006231
 10
758.2963909491
 20
-299.980616623
 10
755.8556122277
 20
-298.0558857347
 10
753.8981828784
 20
-296.8094572042
  0
LWPOLYLINE
  5
CD
330
1F
100
AcDbEntity
  8
0
  6
Continuous
 62
     7
370
    25
100
AcDbPolyline
 90
       37
 70
   128
 43
0.0
 10
673.9046842675
 20
-435.3772751851
 10
674.5754111859
 20
-435.7517056388
 10
677.3792070161
 20
-437.0614535692
 10
680.3461199761
 20
-438.0542407937
 10
683.4628991122
 20
-438.7256332835
 10
686.7156241324
 20
-439.0726324366
 10
690.0897675769
 20
-439.0936884708
 10
693.5702597022
 20
-438.7887073446
 10
697.1415557854
 20
-438.1590511777
 10
700.7877055513
 20
-437.2075321675
 10
704.49242441
 20
-435.9384000288
 10
708.2391661877
 20
-434.3573230139
 10
712.0111970261
 20
-432.4713625965
 10
715.7916701198
 20
-430.2889419337
 10
719.5637009581
 20
-427.8198082459
 10
723.3104427358
 20
-425.0749892835
 10
727.0151615945
 20
-422.0667440745
 10
730.6613113605
 20
-418.8085081721
 10
734.2326074437
 20
-415.3148336488
 10
737.7130995689
 20
-411.6013241032
 10
741.0872430135
 20
-407.6845649704
 10
744.3399680336
 20
-403.5820494474
 10
747.4567471698
 20
-399.3121003644
 10
750.4236601297
 20
-394.8937883507
 10
753.22745596
 20
-390.3468466603
 10
755.8556122277
 20
-385.6915830384
 10
758.2963909491
 20
-380.9487890226
 10
760.5388910137
 20
-376.1396470823
 10
762.573096872
 20
-371.2856360127
 10
764.3899232668
 20
-366.4084350057
 10
765.9812558103
 20
-361.5298268248
 10
767.3399872252
 20
-356.6716005187
 10
768.460049087
 20
-351.8554541052
 10
769.3364389277
 20
-347.1028976634
 10
769.9652425774
 20
-342.435157264
 10
770.3436516463
 20
-337.8730801689
 10
770.4699760678
 20
-333.4370417217
  0
LWPOLYLINE
  5
CE
330
1F
100
AcDbEntity
  8
0
  6
Continuous
 62
     7
370
    25
100
AcDbPolyline
 90
       86
 70
   128
 43
0.0
 10
465.2826893077
 20
-169.175729623
 10
465.1564028222
 20
-165.3047776398
 10
464.7782330986
 20
-161.6007747266
 10
464.1502455689
 20
-158.0839508629
 10
463.2758700831
 20
-154.773513721
 10
462.159882177
 20
-151.6875437607
 10
460.8083769895
 20
-148.8428954798
 10
459.2287359732
 20
-146.2551053607
 10
457.4295865797
 20
-143.9383070156
 10
455.420755139
 20
-141.9051539938
 10
453.2132131919
 20
-140.1667506721
 10
450.8190175669
 20
-138.7325916065
 10
448.2512445303
 20
-137.6105096764
 10
445.523918368
 20
-136.8066333044
 10
442.6519347898
 20
-136.3253529844
 10
439.650979574
 20
-136.1692973026
 10
436.5374428974
 20
-136.3393185811
 10
433.3283298176
 20
-136.8344882225
 10
430.0411673974
 20
-137.652101782
 10
426.6939089781
 20
-138.7876937379
 10
423.3048361245
 20
-140.2350618806
 10
419.8924587771
 20
-141.9863011873
 10
416.4754141578
 20
-144.0318469963
 10
413.0723649794
 20
-146.3605272455
 10
409.7018975163
 20
-148.959623491
 10
406.3824200931
 20
-151.8149403705
 10
403.1320625444
 20
-154.9108831332
 10
399.968577196
 20
-158.2305428134
 10
396.9092419078
 20
-161.755788581
 10
393.9707657083
 20
-165.4673667662
 10
391.1691975354
 20
-169.345006016
 10
388.5198385832
 20
-173.3675280093
 10
386.0371587314
 20
-177.5129631261
 10
383.7347175164
 20
-181.7586704372
 10
381.6250900739
 20
-186.0814613615
 10
379.7197984572
 20
-190.4577263141
 10
378.0292487085
 20
-194.8635636534
 10
376.5626740243
 20
-199.2749102236
 10
375.328084327
 20
-203.6676727795
 10
374.3322225173
 20
-208.0178595752
 10
373.5805276472
 20
-212.3017113991
 10
373.0771052133
 20
-216.495831338
 10
372.8247047344
 20
-220.5773125632
 10
372.8247047344
 20
-224.5238634396
 10
373.0771052133
 20
-228.3139292748
 10
373.5805276472
 20
-231.9268100435
 10
374.3322225173
 20
-235.3427734439
 10
375.328084327
 20
-238.5431626683
 10
376.5626740243
 20
-241.5104983007
 10
378.0292487085
 20
-244.2285737828
 10
379.7197984572
 20
-246.6825439289
 10
381.6250900739
 20
-248.859006005
 10
383.7347175164
 20
-250.74607293
 10
386.0371587314
 20
-252.3334381987
 10
388.5198385832
 20
-253.6124321725
 10
391.1691975354
 20
-254.5760694298
 10
393.9707657083
 20
-255.2190869181
 10
396.9092419078
 20
-255.5379726988
 10
399.968577196
 20
-255.5309851284
 10
403.1320625444
 20
-255.1981623705
 10
406.3824200931
 20
-254.5413221877
 10
409.7018975163
 20
-253.5640520133
 10
413.0723649794
 20
-252.271689358
 10
416.4754141578
 20
-250.6712926586
 10
419.8924587771
 20
-248.7716027268
 10
423.3048361245
 20
-246.5829950102
 10
426.6939089781
 20
-244.1174229254
 10
430.0411673974
 20
-241.388352572
 10
433.3283298176
 20
-238.4106891859
 10
436.5374428974
 20
-235.200695732
 10
439.650979574
 20
-231.7759040813
 10
442.6519347898
 20
-228.1550192584
 10
445.523918368
 20
-224.3578172803
 10
448.2512445303
 20
-220.4050371477
 10
450.8190175669
 20
-216.3182675748
 10
453.2132131919
 20
-212.1198290799
 10
455.420755139
 20
-207.8326520781
 10
457.4295865797
 20
-203.4801516436
 10
459.2287359732
 20
-199.0860996244
 10
460.8083769895
 20
-194.6744948089
 10
462.159882177
 20
-190.2694318528
 10
463.2758700831
 20
-185.8949696824
 10
464.1502455689
 20
-181.5750000932
 10
464.7782330986
 20
-177.3331172609
 10
465.1564028222
 20
-173.1924888787
 10
465.2826893077
 20
-169.175729623
  0
LWPOLYLINE
  5
CF
330
1F
100
AcDbEntity
  8
0
  6
Continuous
 62
     7
370
    25
100
AcDbPolyline
 90
       95
 70
   128
 43
0.0
 10
770.1164226773
 20
-228.7327013805
 10
769.9900982558
 20
-224.2966629333
 10
769.6116891868
 20
-219.7345858381
 10
768.9828855371
 20
-215.0668454388
 10
768.1064956964
 20
-210.314288997
 10
766.9864338346
 20
-205.4981425835
 10
765.6277024197
 20
-200.6399162773
 10
764.0363698762
 20
-195.7613080965
 10
762.2195434814
 20
-190.8841070895
 10
760.1853376231
 20
-186.0300960199
 10
757.9428375585
 20
-181.2209540795
 10
755.5020588371
 20
-176.4781600637
 10
752.8739025694
 20
-171.8228964419
 10
750.0701067391
 20
-167.2759547514
 10
747.1031937792
 20
-162.8576427377
 10
743.986414643
 20
-158.5876936548
 10
740.7336896229
 20
-154.4851781318
 10
737.3595461783
 20
-150.5684189989
 10
733.8790540531
 20
-146.8549094533
 10
730.3077579699
 20
-143.3612349301
 10
726.6616082039
 20
-140.1029990277
 10
722.9568893452
 20
-137.0947538186
 10
719.2101475675
 20
-134.3499348563
 10
715.4381167292
 20
-131.8808011685
 10
711.6576436355
 20
-129.6983805057
 10
707.8856127971
 20
-127.8124200883
 10
704.1388710194
 20
-126.2313430734
 10
700.4341521607
 20
-124.9622109347
 10
696.7880023948
 20
-124.0106919245
 10
693.2167063116
 20
-123.3810357576
 10
689.7362141863
 20
-123.0760546314
 10
686.3620707418
 20
-123.0971106655
 10
683.1093457216
 20
-123.4441098187
 10
679.9925665855
 20
-124.1155023085
 10
677.0256536255
 20
-125.1082895329
 10
674.2218577953
 20
-126.4180374634
 10
671.5937015275
 20
-128.0388964476
 10
669.1529228062
 20
-129.9636273359
 10
666.9104227416
 20
-132.1836338129
 10
664.8762168833
 20
-134.6890007908
 10
663.0593904885
 20
-137.4685386924
 10
661.4680579449
 20
-140.5098334268
 10
660.1093265301
 20
-143.7993018333
 10
658.9892646682
 20
-147.3222523476
 10
658.1128748276
 20
-151.0629506174
 10
657.4840711779
 20
-155.0046897762
 10
657.1056621089
 20
-159.12986506
 10
656.9793376874
 20
-163.4200524346
 10
657.1056621089
 20
-167.8560908818
 10
657.4840711779
 20
-172.4181679769
 10
658.1128748276
 20
-177.0859083763
 10
658.9892646682
 20
-181.8384648181
 10
660.1093265301
 20
-186.6546112316
 10
661.4680579449
 20
-191.5128375378
 10
663.0593904885
 20
-196.3914457186
 10
664.8762168833
 20
-201.2686467256
 10
666.9104227416
 20
-206.1226577952
 10
669.1529228062
 20
-210.9317997356
 10
671.5937015275
 20
-215.6745937514
 10
674.2218577953
 20
-220.3298573732
 10
677.0256536255
 20
-224.8767990637
 10
679.9925665855
 20
-229.2951110774
 10
683.1093457216
 20
-233.5650601603
 10
686.3620707418
 20
-237.6675756833
 10
689.7362141863
 20
-241.5843348161
 10
693.2167063116
 20
-245.2978443618
 10
696.7880023948
 20
-248.791518885
 10
700.4341521607
 20
-252.0497547874
 10
704.1388710194
 20
-255.0579999965
 10
707.8856127971
 20
-257.8028189588
 10
711.6576436355
 20
-260.2719526466
 10
715.4381167292
 20
-262.4543733094
 10
719.2101475675
 20
-264.3403337268
 10
722.9568893452
 20
-265.9214107417
 10
726.6616082039
 20
-267.1905428804
 10
730.3077579699
 20
-268.1420618906
 10
733.8790540531
 20
-268.7717180575
 10
737.3595461783
 20
-269.0766991837
 10
740.7336896229
 20
-269.0556431496
 10
743.986414643
 20
-268.7086439964
 10
747.1031937792
 20
-268.0372515066
 10
750.0701067391
 20
-267.0444642822
 10
752.8739025694
 20
-265.7347163517
 10
755.5020588371
 20
-264.1138573675
 10
757.9428375585
 20
-262.1891264792
 10
760.1853376231
 20
-259.9691200021
 10
762.2195434814
 20
-257.4637530243
 10
764.0363698762
 20
-254.6842151226
 10
765.6277024197
 20
-251.6429203883
 10
766.9864338346
 20
-248.3534519817
 10
768.1064956964
 20
-244.8305014675
 10
768.9828855371
 20
-241.0898031977
 10
769.6116891868
 20
-237.1480640389
 10
769.9900982558
 20
-233.0228887551
 10
770.1164226773
 20
-228.7327013805
  0
LWPOLYLINE
  5
D0
330
1F
100
AcDbEntity
  8
0
  6
Continuous
 62
     7
370
    25
100
AcDbPolyline
 90
       86
 70
   128
 43
0.0
 10
759.7926636719
 20
-222.7729221641
 10
759.6663771864
 20
-218.7561629084
 10
759.2882074628
 20
-214.6155345262
 10
758.6602199331
 20
-210.3736516939
 10
757.7858444473
 20
-206.0536821047
 10
756.6698565412
 20
-201.6792199343
 10
755.3183513537
 20
-197.2741569782
 10
753.7387103374
 20
-192.8625521627
 10
751.9395609439
 20
-188.4685001435
 10
749.9307295032
 20
-184.115999709
 10
747.7231875561
 20
-179.8288227073
 10
745.3289919311
 20
-175.6303842124
 10
742.7612188945
 20
-171.5436146395
 10
740.0338927322
 20
-167.5908345068
 10
737.161909154
 20
-163.7936325288
 10
734.1609539382
 20
-160.1727477058
 10
731.0474172616
 20
-156.7479560552
 10
727.8383041818
 20
-153.5379626012
 10
724.5511417616
 20
-150.5602992151
 10
721.2038833423
 20
-147.8312288617
 10
717.8148104887
 20
-145.3656567769
 10
714.4024331413
 20
-143.1770490604
 10
710.985388522
 20
-141.2773591286
 10
707.5823393436
 20
-139.6769624291
 10
704.2118718805
 20
-138.3845997739
 10
700.8923944573
 20
-137.4073295994
 10
697.6420369086
 20
-136.7504894166
 10
694.4785515602
 20
-136.4176666588
 10
691.419216272
 20
-136.4106790884
 10
688.4807400725
 20
-136.7295648691
 10
685.6791718996
 20
-137.3725823573
 10
683.0298129474
 20
-138.3362196146
 10
680.5471330956
 20
-139.6152135884
 10
678.2446918806
 20
-141.2025788571
 10
676.1350644381
 20
-143.0896457821
 10
674.2297728214
 20
-145.2661078582
 10
672.5392230727
 20
-147.7200780043
 10
671.0726483885
 20
-150.4381534864
 10
669.8380586912
 20
-153.4054891188
 10
668.8421968815
 20
-156.6058783433
 10
668.0905020113
 20
-160.0218417436
 10
667.5870795774
 20
-163.6347225124
 10
667.3346790986
 20
-167.4247883476
 10
667.3346790986
 20
-171.3713392239
 10
667.5870795774
 20
-175.4528204491
 10
668.0905020113
 20
-179.646940388
 10
668.8421968815
 20
-183.9307922119
 10
669.8380586912
 20
-188.2809790077
 10
671.0726483885
 20
-192.6737415635
 10
672.5392230727
 20
-197.0850881337
 10
674.2297728214
 20
-201.490925473
 10
676.1350644381
 20
-205.8671904256
 10
678.2446918806
 20
-210.1899813499
 10
680.5471330956
 20
-214.435688661
 10
683.0298129474
 20
-218.5811237778
 10
685.6791718996
 20
-222.6036457712
 10
688.4807400725
 20
-226.4812850209
 10
691.419216272
 20
-230.1928632061
 10
694.4785515602
 20
-233.7181089737
 10
697.6420369086
 20
-237.0377686539
 10
700.8923944573
 20
-240.1337114166
 10
704.2118718805
 20
-242.9890282961
 10
707.5823393436
 20
-245.5881245416
 10
710.985388522
 20
-247.9168047909
 10
714.4024331413
 20
-249.9623505998
 10
717.8148104887
 20
-251.7135899065
 10
721.2038833423
 20
-253.1609580493
 10
724.5511417616
 20
-254.2965500051
 10
727.8383041818
 20
-255.1141635646
 10
731.0474172616
 20
-255.609333206
 10
734.1609539382
 20
-255.7793544845
 10
737.161909154
 20
-255.6232988027
 10
740.0338927322
 20
-255.1420184827
 10
742.7612188945
 20
-254.3381421107
 10
745.3289919311
 20
-253.2160601807
 10
747.7231875561
 20
-251.781901115
 10
749.9307295032
 20
-250.0434977933
 10
751.9395609439
 20
-248.0103447715
 10
753.7387103374
 20
-245.6935464265
 10
755.3183513537
 20
-243.1057563074
 10
756.6698565412
 20
-240.2611080264
 10
757.7858444473
 20
-237.1751380661
 10
758.6602199331
 20
-233.8647009242
 10
759.2882074628
 20
-230.3478770605
 10
759.6663771864
 20
-226.6438741473
 10
759.7926636719
 20
-222.7729221641
  0
ENDSEC
  0
SECTION
  2
OBJECTS
  0
DICTIONARY
  5
C
330
0
100
AcDbDictionary
281
     1
  3
ACAD_GROUP
350
D
  3
ACAD_LAYOUT
350
1A
  3
ACAD_MLINESTYLE
350
17
  3
ACAD_PLOTSETTINGS
350
19
  3
ACAD_PLOTSTYLENAME
350
E
  3
ACAD_SCALELIST
350
47
  3
DWGPROPS
350
D1
  0
DICTIONARY
  5
D
102
{ACAD_REACTORS
330
C
102
}
330
C
100
AcDbDictionary
281
     1
  0
DICTIONARY
  5
1A
102
{ACAD_REACTORS
330
C
102
}
330
C
100
AcDbDictionary
281
     1
  3
Layout1
350
1E
  3
Layout2
350
26
  3
Model
350
22
  0
DICTIONARY
  5
17
102
{ACAD_REACTORS
330
C
102
}
330
C
100
AcDbDictionary
281
     1
  3
Standard
350
18
  0
DICTIONARY
  5
19
102
{ACAD_REACTORS
330
C
102
}
330
C
100
AcDbDictionary
281
     1
  0
ACDBDICTIONARYWDFLT
  5
E
102
{ACAD_REACTORS
330
C
102
}
330
C
100
AcDbDictionary
281
     1
  3
Normal
350
F
100
AcDbDictionaryWithDefault
340
F
  0
DICTIONARY
  5
47
102
{ACAD_REACTORS
330
C
102
}
330
C
100
AcDbDictionary
281
     1
  3
A0
350
48
  3
A1
350
49
  3
A2
350
4A
  3
A3
350
4B
  3
A4
350
4C
  3
A5
350
4D
  3
A6
350
4E
  3
A7
350
4F
  3
A8
350
50
  3
A9
350
51
  3
B0
350
52
  3
B1
350
53
  3
B2
350
54
  3
B3
350
55
  3
B4
350
56
  3
B5
350
57
  3
B6
350
58
  3
B7
350
59
  3
B8
350
5A
  3
B9
350
5B
  3
C0
350
5C
  3
C1
350
5D
  3
C2
350
5E
  3
C3
350
5F
  3
C4
350
60
  3
C5
350
61
  3
C6
350
62
  3
C7
350
63
  3
C8
350
64
  3
C9
350
65
  3
D0
350
66
  3
D1
350
67
  3
D2
350
68
  0
XRECORD
  5
D1
102
{ACAD_REACTORS
330
C
102
}
330
C
100
AcDbXrecord
280
     1
  1
DWGPROPS COOKIE
  2

  3

  4

  6

  7

  8
b.kav
  9

300
=
301
=
302
=
303
=
304
=
305
=
306
=
307
=
308
=
309
=
 40
0.0
 41
2460608.405339815
 42
2460608.40534
  1

 90
        0
  0
LAYOUT
  5
1E
102
{ACAD_REACTORS
330
1A
102
}
330
1A
100
AcDbPlotSettings
  1

  2
none_device
  4

  6

 40
0.0
 41
0.0
 42
0.0
 43
0.0
 44
0.0
 45
0.0
 46
0.0
 47
0.0
 48
0.0
 49
0.0
140
0.0
141
0.0
142
1.0
143
1.0
 70
   688
 72
     1
 73
     0
 74
     5
  7

 75
    16
147
1.0
148
0.0
149
0.0
100
AcDbLayout
  1
Layout1
 70
     1
 71
     1
 10
0.0
 20
0.0
 11
420.0
 21
297.0
 12
0.0
 22
0.0
 32
0.0
 14
1.0000000000E+20
 24
1.0000000000E+20
 34
1.0000000000E+20
 15
-1.0000000000E+20
 25
-1.0000000000E+20
 35
-1.0000000000E+20
146
0.0
 13
0.0
 23
0.0
 33
0.0
 16
1.0
 26
0.0
 36
0.0
 17
0.0
 27
1.0
 37
0.0
 76
     0
330
1B
  0
LAYOUT
  5
26
102
{ACAD_REACTORS
330
1A
102
}
330
1A
100
AcDbPlotSettings
  1

  2
none_device
  4

  6

 40
0.0
 41
0.0
 42
0.0
 43
0.0
 44
0.0
 45
0.0
 46
0.0
 47
0.0
 48
0.0
 49
0.0
140
0.0
141
0.0
142
1.0
143
1.0
 70
   688
 72
     1
 73
     0
 74
     5
  7

 75
    16
147
1.0
148
0.0
149
0.0
100
AcDbLayout
  1
Layout2
 70
     1
 71
     2
 10
0.0
 20
0.0
 11
0.0
 21
0.0
 12
0.0
 22
0.0
 32
0.0
 14
0.0
 24
0.0
 34
0.0
 15
0.0
 25
0.0
 35
0.0
146
0.0
 13
0.0
 23
0.0
 33
0.0
 16
1.0
 26
0.0
 36
0.0
 17
0.0
 27
1.0
 37
0.0
 76
     0
330
23
  0
LAYOUT
  5
22
102
{ACAD_REACTORS
330
1A
102
}
330
1A
100
AcDbPlotSettings
  1

  2
none_device
  4
Letter_(8.50_x_11.00_Inches)
  6

 40
6.35
 41
6.35
 42
6.35000508
 43
6.35000508
 44
215.9
 45
279.4
 46
0.0
 47
0.0
 48
0.0
 49
0.0
140
0.0
141
0.0
142
1.0
143
1.0
 70
  1712
 72
     1
 73
     0
 74
     0
  7

 75
     0
147
1.0
148
0.0
149
0.0
100
AcDbLayout
  1
Model
 70
     1
 71
     0
 10
0.0
 20
0.0
 11
279.4
 21
215.9
 12
0.0
 22
0.0
 32
0.0
 14
0.0
 24
0.0
 34
0.0
 15
279.4
 25
215.9
 35
0.0
146
0.0
 13
0.0
 23
0.0
 33
0.0
 16
1.0
 26
0.0
 36
0.0
 17
0.0
 27
1.0
 37
0.0
 76
     0
330
1F
331
29
  0
MLINESTYLE
  5
18
102
{ACAD_REACTORS
330
17
102
}
330
17
100
AcDbMlineStyle
  2
Standard
 70
     0
  3

 62
   256
 51
90.0
 52
90.0
 71
     2
 49
0.5
 62
   256
  6
BYLAYER
 49
-0.5
 62
   256
  6
BYLAYER
  0
ACDBPLACEHOLDER
  5
F
102
{ACAD_REACTORS
330
E
102
}
330
E
  0
SCALE
  5
48
102
{ACAD_REACTORS
330
47
102
}
330
47
100
AcDbScale
 70
     0
300
1:1
140
1.0
141
1.0
290
     1
  0
SCALE
  5
49
102
{ACAD_REACTORS
330
47
102
}
330
47
100
AcDbScale
 70
     0
300
1:2
140
1.0
141
2.0
290
     0
  0
SCALE
  5
4A
102
{ACAD_REACTORS
330
47
102
}
330
47
100
AcDbScale
 70
     0
300
1:4
140
1.0
141
4.0
290
     0
  0
SCALE
  5
4B
102
{ACAD_REACTORS
330
47
102
}
330
47
100
AcDbScale
 70
     0
300
1:5
140
1.0
141
5.0
290
     0
  0
SCALE
  5
4C
102
{ACAD_REACTORS
330
47
102
}
330
47
100
AcDbScale
 70
     0
300
1:8
140
1.0
141
8.0
290
     0
  0
SCALE
  5
4D
102
{ACAD_REACTORS
330
47
102
}
330
47
100
AcDbScale
 70
     0
300
1:10
140
1.0
141
10.0
290
     0
  0
SCALE
  5
4E
102
{ACAD_REACTORS
330
47
102
}
330
47
100
AcDbScale
 70
     0
300
1:16
140
1.0
141
16.0
290
     0
  0
SCALE
  5
4F
102
{ACAD_REACTORS
330
47
102
}
330
47
100
AcDbScale
 70
     0
300
1:20
140
1.0
141
20.0
290
     0
  0
SCALE
  5
50
102
{ACAD_REACTORS
330
47
102
}
330
47
100
AcDbScale
 70
     0
300
1:30
140
1.0
141
30.0
290
     0
  0
SCALE
  5
51
102
{ACAD_REACTORS
330
47
102
}
330
47
100
AcDbScale
 70
     0
300
1:40
140
1.0
141
40.0
290
     0
  0
SCALE
  5
52
102
{ACAD_REACTORS
330
47
102
}
330
47
100
AcDbScale
 70
     0
300
1:50
140
1.0
141
50.0
290
     0
  0
SCALE
  5
53
102
{ACAD_REACTORS
330
47
102
}
330
47
100
AcDbScale
 70
     0
300
1:100
140
1.0
141
100.0
290
     0
  0
SCALE
  5
54
102
{ACAD_REACTORS
330
47
102
}
330
47
100
AcDbScale
 70
     0
300
2:1
140
2.0
141
1.0
290
     0
  0
SCALE
  5
55
102
{ACAD_REACTORS
330
47
102
}
330
47
100
AcDbScale
 70
     0
300
4:1
140
4.0
141
1.0
290
     0
  0
SCALE
  5
56
102
{ACAD_REACTORS
330
47
102
}
330
47
100
AcDbScale
 70
     0
300
8:1
140
8.0
141
1.0
290
     0
  0
SCALE
  5
57
102
{ACAD_REACTORS
330
47
102
}
330
47
100
AcDbScale
 70
     0
300
10:1
140
10.0
141
1.0
290
     0
  0
SCALE
  5
58
102
{ACAD_REACTORS
330
47
102
}
330
47
100
AcDbScale
 70
     0
300
100:1
140
100.0
141
1.0
290
     0
  0
SCALE
  5
59
102
{ACAD_REACTORS
330
47
102
}
330
47
100
AcDbScale
 70
     0
300
1/128" = 1'-0"
140
0.0078125
141
12.0
290
     0
  0
SCALE
  5
5A
102
{ACAD_REACTORS
330
47
102
}
330
47
100
AcDbScale
 70
     0
300
1/64" = 1'-0"
140
0.015625
141
12.0
290
     0
  0
SCALE
  5
5B
102
{ACAD_REACTORS
330
47
102
}
330
47
100
AcDbScale
 70
     0
300
1/32" = 1'-0"
140
0.03125
141
12.0
290
     0
  0
SCALE
  5
5C
102
{ACAD_REACTORS
330
47
102
}
330
47
100
AcDbScale
 70
     0
300
1/16" = 1'-0"
140
0.0625
141
12.0
290
     0
  0
SCALE
  5
5D
102
{ACAD_REACTORS
330
47
102
}
330
47
100
AcDbScale
 70
     0
300
3/32" = 1'-0"
140
0.09375
141
12.0
290
     0
  0
SCALE
  5
5E
102
{ACAD_REACTORS
330
47
102
}
330
47
100
AcDbScale
 70
     0
300
1/8" = 1'-0"
140
0.125
141
12.0
290
     0
  0
SCALE
  5
5F
102
{ACAD_REACTORS
330
47
102
}
330
47
100
AcDbScale
 70
     0
300
3/16" = 1'-0"
140
0.1875
141
12.0
290
     0
  0
SCALE
  5
60
102
{ACAD_REACTORS
330
47
102
}
330
47
100
AcDbScale
 70
     0
300
1/4" = 1'-0"
140
0.25
141
12.0
290
     0
  0
SCALE
  5
61
102
{ACAD_REACTORS
330
47
102
}
330
47
100
AcDbScale
 70
     0
300
3/8" = 1'-0"
140
0.375
141
12.0
290
     0
  0
SCALE
  5
62
102
{ACAD_REACTORS
330
47
102
}
330
47
100
AcDbScale
 70
     0
300
1/2" = 1'-0"
140
0.5
141
12.0
290
     0
  0
SCALE
  5
63
102
{ACAD_REACTORS
330
47
102
}
330
47
100
AcDbScale
 70
     0
300
3/4" = 1'-0"
140
0.75
141
12.0
290
     0
  0
SCALE
  5
64
102
{ACAD_REACTORS
330
47
102
}
330
47
100
AcDbScale
 70
     0
300
1" = 1'-0"
140
1.0
141
12.0
290
     0
  0
SCALE
  5
65
102
{ACAD_REACTORS
330
47
102
}
330
47
100
AcDbScale
 70
     0
300
1-1/2" = 1'-0"
140
1.5
141
12.0
290
     0
  0
SCALE
  5
66
102
{ACAD_REACTORS
330
47
102
}
330
47
100
AcDbScale
 70
     0
300
3" = 1'-0"
140
3.0
141
12.0
290
     0
  0
SCALE
  5
67
102
{ACAD_REACTORS
330
47
102
}
330
47
100
AcDbScale
 70
     0
300
6" = 1'-0"
140
6.0
141
12.0
290
     0
  0
SCALE
  5
68
102
{ACAD_REACTORS
330
47
102
}
330
47
100
AcDbScale
 70
     0
300
1'-0" = 1'-0"
140
12.0
141
12.0
290
     0
  0
ENDSEC
  0
EOF
